Beeswing by Richard Thompson

Simplified tab to go along with the video lesson (link for You Tube below)

Beeswing by Richard Thompson – Simplified Tab
Tabbed by [email protected] 
Dropped D tuning
Capo on 2nd Fret. Chords are approximate for fingering help and refer to the open key (without the capo)


Intro/fill
							 G
||-0h2p0-0---------------------0---2---------------------------------
||--------3p0---0--0-0-0-0-2-3--0---3--3-3--3--3--3--3--3------------
||-------------0--0---0----------0---0--0--0--0--0--0--0-------------
||----------------------------------------0-----0-----0--------------
||-0---------------------------0---2---------------------------------
||------------5--4---2---2-------------5-----5-----5-----------------
			     t   t
Verse
    I was nineteen..
    I took a job.. 
      D								   A	    G
||------------------------------2------------------------------------
||---3-3-3-3-3-3-3-3-3-3-3-3-3-3-3--3-3-3-3-3-3--3-----2-----3----3--
||----2---0---2---3---2---0---2---2--2---0---2--2-----2-2-0-0-0--0-0-
||-----------0---------------0--------------0--------2---2-0----0---0
||-------2---------------2--------------2-----------0----------------
||---0-----------0---0--------------0----------4----------5----5-----
	
(Repeat x1)

Chorus

She was a fair thing..
She was a lost child..
        Gmaj7/B     D				G	D/A
||-------------------------------------------------------------
||----------3-----------3----3--------------------3-----3------
||---------0-0---0--0--2-2--2-2--0---2-0-0-2-2-0-0-0---0-0-----
||--------4---4-4--0--0----0----0---0---0---0---0---0-0---0----
||-------2-----2--0------------2---0-------0-------------------
||-------------------0----0------------5-------5-----5---------
(Repeat x1 to here  |) 

				D/B	   D
||---------------------------------------------------------------
||-----0------------------3------3-----Then repeat intro---------
||----2-2-0-0--2-2-4-4-0-0-0----2-2------------------------------
||---0-----0----0---0---0---0--0---0-----------------------------
||---------------------2-----------------------------------------
||--4-----2---4----5----------0---------------------------------
h – Hammer on
p – Pull off
t – Use Thumb

Tags: richard thompson

Sign in or create a free account to add comments.

Sign in or create a free account to add personal notes.

Author: MalcolmPaine
Category: Folk
Instrument: Guitar
Views: 8,427
Created: 5 years ago
Share: Facebook | Twitter