How to Play 'All My Days' by Alexi Murdoch

Easy tune in Dropped D tuning.

Quick and easy to pick up, then you can fine tune once you have the basics. Tab is here along with link to You Tube video lesson.
All My Days by Alexi Murdoch
Tabbed by Malcolm Paine [email protected]

Intro elements

E||--------------|---------------------|--------------------------
B||--------------|-----------3---------|--------------------3-----
G||-----2---2----|----0h2 0h2--2---2---|-4p2--0---0-------2-------
D||--0h4--0------|-0h4-----------0-----|----2---2---2h4-0---------
A||--------------|---------------------|-----0-0-0-0---0-0-0------
D||------0-0-----|------------0-0-0----|--------------------------
     Repeat this 

Verse
(a)	D	  	G/B	 D    
E||---------------------------------------------------------------
B||-------3--------3---------3----------3-------------------------
G||-----2---2----2---2-----0--0-0-----2---2-----------------------
D||-0--0-0-0----0-0-0-----0-0--0--0--0-0-0------------------------
A||----------4---------2------------------------------------------
D||---------------------------------------------------------------
    I have been searching all of my days..
     
(b)
E||---------------------------------------------------------------
B||--------3---3---3-----------------3----------------------------
G||------0---0---0---0--------0-0h2-------------------------------
D||-----0---0---0---0------0h4-----0------------------------------
A||--2----2---2---2-----------------------------------------------
D||--------------------0-(0)----0----0----------------------------
    All    of   my     days
 And I’ve been trying to find
   What’s been on my mind

Last bit
E||---------------------------------------------------------------
B||------------------------------3---3----------------------------
G||-----0---0--0--0------------2---2------------------------------
D||---4---4---4--4------------0-0-0-0-----------------------------
A||--2-2-2-2-2--2-------------------------------------------------
D||------------------------0--------------------------------------
  And even breathing feels alright

Song Pattern:
Intro
Verse: a b a b b b b
End with Gmaj7/B chord

h = hammer on		p = pull off

Tags: alexi murdoch

Sign in or create a free account to add comments.

Sign in or create a free account to add personal notes.

Author: MalcolmPaine
Category: Folk
Instrument: Guitar
Views: 9,913
Created: 4 years ago
Share: Facebook | Twitter