Rock lick w/ tapping technique.

Play w/ free feel.

|------7-7-10b12--10b12--10b12--10b12--10b11--11b12--b11-b10-7--------------------------------------
|----7----------------------------------------------------- -----------7-h10---7-h10---7h-10---7-h10--------------
|--9------------------------------------------------------------------------h9-----h9-------h9-------h9------------
|--------------------------------------------------------------------------------------------------------------------
|---------------------------------------------------------------------------------------------------------------------
|---------------------------------------------------------------------------------------------------------------------

|----------------------------------------------------------------------H10-T12-P10-P7--------------------H10-T12-P10-P7
|--7-10--------------------------------------7-H10-T12-P10-P7-------------------H10-T12-P10-P7-----------------------
|-------9-7---7-9b10--9b10--9b10--7~-------------------------------------------------------------------------------------------
|-----------9------------------------------------------------------------------------------------------------------------------------------
|------------------------------------------------------------------------------------------------------------------------------------------
|------------------------------------------------------------------------------------------------------------------------------------------

|-----------------H10-T12-P10-P7--------------------------------------------------------------------------------------------------------------------------
|--H10-T12/14--------------------H10-P7------H10-T12-P10-P7-------------------------------------------------------------------------------------
|------------------------------------------------------------------------------9-9b11--T12/15--T15-T17-T15-T14-T17-1T5-T14-T15-T17-T16
|-----------------------------------------------------------------------------------------------------------------------------------------------
|-----------------------------------------------------------------------------------------------------------------------------------------------
|-----------------------------------------------------------------------------------------------------------------------------------------------                                       

                     Dive bar        TH/pull up on bar      Dive bar
|--------------------------------------------------------------------------------------------------
|-------------------------------------------------------------------------------------------------
|--P9-P7~--9-9-9-9-7p0---------------5--------------------------------------------------------------
|--------------------------------------------------------------------------------------2-----------
|------------------------------------------------------------------------------------ -2------------
|------------------------------------------------------------0----------h15-/-0----0--------------

Sign in or create a free account to add comments.

Sign in or create a free account to add personal notes.

Author: TEKNICIAN
Category: Rock
Instrument: Guitar
Views: 1,678
Created: 9 years ago
Share: Facebook | Twitter