Si Bheag Si Mhor

Arrangement of trad Irish tune.

Si Bheag Si Mhor arr. Phil Hare 
Tab by Malcolm Paine in C Modal

Part A
      r
D||----------------------------0-2h3p2p0---------------------------
C||----0-----0------0---------0---------0-----0--------------0-----
G||---5-5---5-4----0-0----4------------------0-0—-0h2-0-2s4-5-0----
C||--0---0-0---0--4---4--2------------------0---0----0-------------
G||-------2-------------0------------------------------------------
C||-0------------5---------------0---------4------5-----0--0-------

D||---------------------0-0h2--0-----------------------------------
C||-----------2h4p2p0------------0---2h4-----0h2-------0-----0-----
G||-2p0-2-4-5--------4s5------0-0-------0-2-2-----0--0--0---0-----0
C||----------0------------0--0-------------0----0-0-0----0-0---0-0-
G||-----------0----------------4-2------------------------2v--0----
C||-5-------------------------------------5-------0-------------5--

D||-------------------------|--------------------------------------
C||-2h4------0-2h0----0-----|---Repeat from r----------------------
G||----0-2--2-----0--0-4-5--|--------------------------------------
C||------0-0--------2-------|--------------------------------------
G||----------------0--------|--------------------------------------
C||------5---------------0--|--------------------------------------

Part B
D||------0-2h3p2p0-5p2p0----5-7--5-2h3p2p0------0-5--0h2-0---------
C||-----0---------0-----0----0-0----------0----0---0------0----0---
G||----4-----------------0------0-------------0---------0—0--0-----
C||---2-------------------0-4-5--4-0---------4-------0-------0---0-
G||--0------------------------------------------------------2v--0--
C||--------0------------------------------------------------------5

D||-----------------2s5--7-5h7p5-----------------------------------
C||----2h4------0-2----0--------5-4-----2h4p2p0--------------------
G||--0----0-2--2--------------------7-5--------4-5-----------------
C||-0-------0-0----------------------------------------------------
G||-------------------------------------0--------------------------
C||---------5------------5-----------------------0-----------------


s – Slide		v - vibrato
h – Hammer on 
p – Pull off

Sequence is A A B A A B

Tags: c modal

Sign in or create a free account to add comments.

Sign in or create a free account to add personal notes.

Author: MalcolmPaine
Category: Folk
Instrument: Guitar
Views: 3,875
Created: 5 years ago
Share: Facebook | Twitter