Stevie Ray Vaughan - Pride and Joy lick

A lesson of how to play the intro lick before the first verse.

E|--------------------------------------------------------------
B|---3-----3-----3----------------------------------------------
G|2/4---2/4---2/4---4\2p0----------------------------------------
D|-----------------------2-------0-1-2-0-----------------2------
A|--------------------------0h2-2---------2-0-0h1p0---0----------
E|--------------------------------------------------3---3---0-0--

----------------------------------------2----
---2/3-3-3--2/3-3-3---------------------0----
---3/4-4-4--3/4-4-4--4\2p0--------------2----
---------------------------2------------1----
---------------------------------0-1-2--2----
-----------------------------0-3-------------
One of my favorite SRV licks.

Tags: blues, lick, stevie ray vaughan

Sign in or create a free account to add comments.

  • 1291622204905.jpg
    This is good stuff. Thanks for sharing!

Sign in or create a free account to add personal notes.

Author: gabecash007
Category: Blues
Instrument: Guitar
Views: 2,249
Created: 9 years ago
Share: Facebook | Twitter