What You Thought You Need (Cover) Jack Johnson

A tune off Jack's new album Sleep Through The Static.

Song: What You Thought You Need chords
Artist: Jack Johnson
Album: Sleep Through the Static

Hammer on fret 2 on the D string hard and keep strumming till the last chord

Chords:
C	    :032010
F           :133211 or 587555
Dm 	    :557765

[intro/outro]
			2x			2x
e|--8--5-/3--3/5-|----------------------------|--------------|
B|-----------5---|--1-----1-------------------|--------------|
G|--5------------|------------2-0---2-0-------|-------0------|
D|---------------|----3/5-3-2------------3--2-|----2---------|
A|---------------|--3---------3-3-------------|--3---3-------|
E|---------------|----------------------------|--------------|
          x2               2x        
e|----------------------|---------|--------------------------|
B|---9--------9-------9-|---------|---9-------9-10--10-6--1--|
G|-----10-------10------|-------0-|-----10----------10-7--2--|
D|-------(10)------10---|---2-----|-------(10)---------------|
A|----------------------|-3---3---|-----------------8--5--3--|
E|-8---------8----------|---------|-8------------------------|
   C                                2x       *F Dm C C Dm F
e|--------------------------------|----------|---------------|
B|------------8-------8----8--6-1-|----------|---------------|
G|-------------------------9--7-2-|-------0--|---------------|
D|----10--------10----------------|---2------|---------------|
A|-------10-10-----10-10---10-5-3-|-3---3----|---------------|
E|-9------------------------------|----------|---------------|

*same as before but up and down, just play with it;)
can't give the tab for that 100 dont know

[verse]
         C                       Dm
e|-0-----0---0--0----0-0-00--0-|-5----5-5-XX---5-5---5-5-XX--|
B|-1-----1---1--1----1-1-11--1-|-6----6-6-XX---6-6---6-6-XX--|
G|-0-----0---0--0----0-0-00--0-|-7----7-7-XX---7-7---7-7-XX--|
D|-0h2---2---2--2----2-2-22--0-|-7----7-7-XX---7-7---7-7-XX--|
A|-3-----3---3--3----3-3-33--3-|-5----5-5-XX---5-5---5-5-XX--|
E|-0-----0---0--0----0-0-00--0-|----------XX-------------XX--|

----------------------------------------------------------------------------------
[intro]
Hmm Hmm Hm Hm Hmmm x3

[verse]
Well I can't give you everything you want
But I could give you what you thought you need
A map to keep beneath your seat
you'll read to me in time I'll get you there
but fold it up so we don't find
Our way back soon nobody knows we're here

[Verse]
Well we can park the van and walk to town
Find the cheapest bottle of wine we can find
and Talk about the road behind
how getting lost is not a waste of time
Le bois d'amore will take us home
in the morning we will sing as the forest sleeps

[Chorus]

         Dm
Well its all
        F                      C
For the sake of arriving with you
Well its all                    
For the sake of arriving with you

Verse 2:
well I will make the table into a bed
The candles burning down its time to rest
I can't Take back things already gone
but I could give you promises for keeps
And I would only take them back
If they become your own and you give them to me

[Chorus]
and its all
For the sake of arriving with you
Well its all
For the sake of arriving with you

[Bridge] (Same as the chorus)
We could make this into anything
We could make this into more than words we speak
This could make us into anything
It could make us grow and become mwhat we'll be

[Outro] 
Hmm Hmm Hm Hm Hmmm
how will we really know?
It's just like it feels
It's just like it feels
Hmm Hmm Hm Hm Hmmm

Tags: chords, jack johnson, what you thought you need, easy

Sign in or create a free account to add comments.

Sign in or create a free account to add personal notes.

Author: suupreme
Category: Pop
Instrument: Guitar
Views: 2,126
Created: 8 years ago
Share: Facebook | Twitter